What Have You Done Bass Tab - Within Temptation






Within Temptation - What Have You Done (feat. Keith Caputo)
Album: The Heart Of Everything (I'm sorry this is only the single version, on the album 
there's an extra bridge part)
Bass: BEADG

Intro: only vocals & keyboards

Main Riff:
|---------------------------|
|---------------------------|
|-----------------------5-7-| 4x
|-------------------5-7-----|
|-5-7-7-7---5-7-7-7---------|

Verse:
|------------------------|
|------------------------|
|------------------------| 3x
|-2--2-2-2-------------0-|
|------------3--3-3-3----|

|-----------------------------------|
|-----------------------------------|
|-----------------------------------| 1x
|------------------0--0-0-0--0-0-0--|
|-3--3-3-3--3-3-3-------------------|

Chorus:
|---------------------------------------------------------------------|
|---------------------------------------------------------------------|
|---------------------------------------------------------------------|
|-2--2-2----------0--0-0-------------2--2-2----------0--0-0-0--0-0-0--|
|---------3--3-3----------0--0-0-0-----------3--3-3-------------------|

|---------------------------------------------------------------------|
|---------------------------------------------------------------------|
|---------------------------------------------------------------------|
|-2--2-2----------0--0-0----------------------------0--0-0-0--0-0-0---|
|---------3--3-3----------0--0-0---3--3-3-3--3-3-3--------------------|

Main Riff 4x

Verse

Chorus

Main Riff 4x

Bridge: (Im really not sure about this)
|-----------------------------------------------------------------|
|-----------------------------------------------------------------|
|-----------------------------------------------------------------|
|-2---0---0-----2---0-------2---0---0-----0---0-0-0-2--2-0-0-0-2--|
|-------3-------------1-3---------3-----3-------------------------|

Chorus 2x

End:
|-----------|
|-----------|
|-----------|
|-2---------| (let ring)
|-----------|






Like us on Facebook