Running Red Bass Tab - Your Name In Vain






++++++++++++++++++++++++++++++++++++++++++++++++++++++
| http://www.myspace.com/yournameinvain              |
| http://www.purevolume.com/yournameinvain           |
| http://www.sputnikmusic.com/band/Your+Name+In+Vain |
| http://www.last.fm/music/Your+Name+In+Vain         |
++++++++++++++++++++++++++++++++++++++++++++++++++++++

++++++++++++++++++++++++++++++++++
| Your Name In Vain- Running Red |
++++++++++++++++++++++++++++++++++

Drop D


Intro
1.
|-----------------------------|
|-----------------------------|
|-----------------------------|
|-4x--22x--2200000000-0000000-|

2.
|-----------------------------|
|-----------------------------|
|-----------------------------|
|-4x--22x--2200000000-0000000-|

3.
|---------------------------------|
|---------------------------------|
|---------------------------------|
|-4444444-2222222-0000000-0000000-|

4.
|---------------------------------|
|---------------------------------|
|---------------------------------|
|-4-4-4-4-2-2-2-2-0000000-0000000-|

Verse
5.
|----------------------------------------------------|
|----------------------------------------------------|
|----------------------------------------22x-22x-22x-|
|-44x-44x-44x--44x-44x-44x--00x-00x-00x--------------|

6.
|--1-41-41--1-41-41--1-41-41--1-64-6-|
|---2--2-----2--2-----2--2-----2--4--|
|------------------------------------|
|------------------------------------|

Chorus
7.
|-----------------------|
|-----------------------|
|-----------------------|
|-0-2-44444-66666-77777-|

8.
|----------------------------|
|----------------------------|
|----------------------------|
|-77777-44444-22222-00x--00x-|

9.
|-----------------------|
|-----------------------|
|-----------------------|
|-0-2-44444-66666-77777-|

10.
|--------------------------------------------------|
|--------------------------------------------------|
|--------------------------------------------------|
|-77777-44444-22222-00x--00x--0h2~--00x--00x--0h2~-|

Outro
11.
|-----------------------------|
|-----------------------------|
|-----------------------------|
|-22-4-4-4-4-4-4-4-4-4-4-4-4x-|

Verse    
12.
|--------------------------------------------------------------------|
|--------------------------------------------------------------------|
|---------------------------------------------------2222222222222222-|
|-4444444444444444-4444444444444444-000000000000000------------------|

13.
|------------------------------------------------------|
|------------------------------------------------------|
|---------------------------------------------------2x-|
|-4444444444444444-4444444444444444-000000000000000----|

Chorus
14.
|-------------------|
|-------------------|
|-------------------|
|-44444-66666-77777-|

15.
|----------------------------|
|----------------------------|
|----------------------------|
|-77777-44444-22222-00x--00x-|

16.
|-----------------------|
|-----------------------|
|-----------------------|
|-0-2-44444-66666-77777-|

17.
|------------------------------------------------|
|------------------------------------------------|
|------------------------------------------------|
|-77777-44444-22222-00x--00x--0h2~--00x--00x--02-|

18.
|------------------------------------------------------------|
|------------------------------------------------------------|
|------------------------------------------------------------| 
|-44444-4444-44--44444-4444-44--00000-0000-00--22222-2222-22-|

19.
|------------------------------------------------------------|
|------------------------------------------------------------|
|-------------------------------22222-2222-22----------------| 
|-44444-4444-44--44444-4444-44-----------------22222-2222-22-|

20.
|-----------------------------------------------------|
|-----------------------------------------------------|
|-----------------------------------------------------|
|-4~----2~---00000-0000-00x--00x--00x--0h2~--00x--00x-|

21.
|-------------------|
|-------------------|
|-------------------|
|-44444-66666-77777-|

22.
|----------------------------|
|----------------------------|
|----------------------------|
|-77777-44444-22222-00x--00x-|

23.
|-----------------------|
|-----------------------|
|-----------------------|
|-0-2-44444-66666-77777-|

24.
|------------------------------------------------|
|------------------------------------------------|
|------------------------------------------------|
|-77777-44444-22222-00x--00x--0h2~--00x--00x--02-|

25.
|--------------------------------------|
|--------------------------------------|
|--------------------------------------|
|-22-4-4-4-4-4-4-4-4-4-4-4-4x--4-2--0~-|

That's it ;)

+++++++++++++++++++++++++++++++++
| RaiLeff                       |
| Underground__Dora@hotmail.com |
+++++++++++++++++++++++++++++++++


ĂŽnscrie-te la newsletter


Like us on Facebook