Buzzing Bass Tab - ZAO






Drop D tuning

Chorus 
G |----------------------------------------------|
D |----------------------------------------------|
A |----------------------------------------------|
D |--3-2-0-2-3-2-3-2-0-2-3-2-3-2-0-2-3-2-(rest)--|

Verse 
G |-------------------------|
D |-------------------------|
A |--------------1-1---1-1--|
D |--0~-3~-2~--x-----x------|

G |-------------------------------------|
D |-------------------------------------|
A |------------------3-2-0-------3-2-0--|
D |--0~-3~-2~--0-2-3-------0-2-3--------|

Chorus (0:57)
Verse (1:26)

Verse Variation 
G |-------------------------|
D |-------------------------|
A |--------------1-1---1-1--|
D |--0~-3~-2~--x-----x------|

G |---------------------------------------------------------|
D |---------------------------------------------------------|
A |------------------3-2-0-------3-2-0-------33-555-3-2-0--|
D |--0~-3~-2~--0-2-3-------0-2-3-------0-2-3----------------|

G |----------------------------------------------|
D |----------------------------------------------|
A |--------3-2-0-------3-2-0-------3-2-0--1-1-1--|
D |--0-2-3-------0-2-3-------0-2-3---------------|

Verse (2:21)

Chorus Variation (2:50)
G |-----------------------------------------------|
D |-----------------------------------------------|
A |------------------------------------------1-1--|
D |--3-2-0-2-3-2-3-2-0-2-3-2-3-2-0-2-3-2-x-x------|

ĂŽnscrie-te la newsletter


Like us on Facebook