Killing Cupid Bass Tab - ZAO






Drop D tuning

Verse
G |----------------------------------------------|
D |----------------------------------------------|
A |--------------------------------3-2---3-2-----|
D |--3-3-3-3-3-3-3-3-0-00-0-00-0-0-----3-----3---|

Chorus
G |-----------------------------------------------------------------|
D |-----------------------------------------------------------------|
A |-2-2-2-2-2-2-2-2-2-2-2-2-2-2-2-2---------------------------------|
D |---------------------------------3-3-3-3-3-3-3-3-3-3-3-3-3-3-3-3-|

G |-----------------------|
D |-----------------------|
A |-----------------------|
D |--(rest)---3333-5555---|

Verse 
Chorus 

Bridge
G |---------------|-------------|
D |---------------|-------------|
A |---------------|-------------|
D |--3-3-3-3-0-4--|--2222-2222--|

(2:21)
G |--------------------------------------------------------|
D |--------------------------------------------------------|
A |--0h1h3-0h5p3-0h5p3-0h1h3p1--0h1h3-0h5p3-0h5p3-0-1-3-1--|
D |--------------------------------------------------------|

Chorus

Outro
G |---------|
D |---------|
A |---------|
D |--3-3-3--|

ĂŽnscrie-te la newsletter


Like us on Facebook