Parade Of Chaos Bass Tab - ZAO






Drop C Tuning

|-------------|
|-------------|
|-------------| x8
|-3h5-0-0-0-0-|

|---------------------------|
|---------------------------|
|---------------------------| x8
|-333333333333-111111111111-|

|-------------|
|-------------|
|-------------| x8
|-3h5-0-0-0-0-|

|---------------------------|
|---------------------------|
|---------------------------| x4
|-333333333333-111111111111-|

|-------------|
|-------------|
|-------------| x4
|-3h5-0-0-0-0-|

|---------------------|
|---------------------|
|---------------------| x8
|-0-0-0-0--0--0--0--0-|

|---------------------|
|---------------------|
|---------------------|
|-0-0-0-0-0-0-0-0-0-0-|

ĂŽnscrie-te la newsletter


Like us on Facebook