Skin Like Winter Bass Tab - ZAO






Standard Tuning

Intro:              (4x)|Then:               
G|----------------------|-------------|       
D|----------------------|-------------|         (3x)
A|----------------------|----3~-------|        /
E|-2--4-4--2-4--2-2-4---|-0~----3~-0~-|       /
                                             /
(6x)                                         
G|-----------------------------------------|
D|-----------------------------------------|
A|-----------------------------------------|
E|-0-0-0----0-0-0----0-0-0----0-0-0--0-0-0-|

G|-------------------------------------------|
D|-------------------------------------------| (2x)
A|-------------------5--------------------3--|
E|-0--0-0--0--0-0--0----0--0-0--0--0-0--0----|

G|-----------------|
D|-----------------| (4x)
A|-----------------|
E|-0--7-6--0---12--|

G|-----------------|
D|-----------------| (8x)
A|-----------------|
E|-0--7-6--0--3-2--|

G|---------------------------|
D|---------------------------| (8x)
A|---------------------------|
E|-0-0-0--0-0--0-0-0--0-0-0--|

Outro:
G|------------------|
D|------------------|
A|------------------|
E|-0--0--0--0--0-0--|

ĂŽnscrie-te la newsletter


Like us on Facebook