Draga otee - Zdob Si Zdub




muz. Iurie Sadovnic
versuri Grigore Vieru

Originalul e in C#m, deci capodastru pe 4, sau transpuneti acordurile

Intro:

Am
F C E Am
F C E Am
F C E Am
F C E Am

solo de intro:

E||----------------------------------------------|
B||----------------------------------------------|
G||----------------------------------------------|
D||--12-10----12-10----10-------10---------------|
A||--------13-------13----13-12----13-12-10------|
E||------------------------------------------13--|


-----------------------------------------------|
-----------------------------------------------|
-----------------------------------------------|
-----------------------12-10----12-10----10----|
----------------10-12--------13-------13----13-|
--12--10s-12-13--------------------------------|


------------------------------------||
------------------------------------||
------------------------------------||
-----10-----------------------------||
--12----13-12-10--------------------||
------------------13--12--10--10----||

Am          F        G        C
Draga o teie, dulce mireasma
Dm          Am         E    Am
La gura femeie, la mijloc mireasa
Am          F       G        C
Draga o teie, dulce mireasma
Dm          Am        E        Am
La gura femeie, la mijloc mireasa

    E                Am
    Curge izvorul, graul rasare
    G                  C       E
    Acolo pe unde trec urmele tale
    Am       F      G        C
    Valura dorul des ca o iarba
    Dm      Am      E        Am
    Parca raspunde, parca intreaba
    Am      F       G        C
    Valura dorul des ca o iarba
    Dm      Am      E        Am
    Parca raspunde, parca intreaba

intro repeat

Draga o teie, dulce mireasma
La gura femeie, la mijloc mireasa
Draga o teie, dulce mireasma
La gura femeie, la mijloc mireasa

Curge izvorul, graul rasare
Acolo pe unde trec urmele tale
Valura dorul des ca o iarba
Parca raspunde, parca intreaba
Valura dorul des ca o iarba
Parca raspunde, parca intreaba

ĂŽnscrie-te la newsletter


Join the ranks ! LIKE us on Facebook