Are You For Real Chords - Zebrahead




Artist: Zebrahead
Song: R U for real
intro
tuning: standard EBGDAe

ICQ: 363531041
Email: AvivAbramovich@gmail.com


E-----------------|----------------|-----------------|-----------------|
B-----------------|----------------|-----------------|-----------------|
G-----------------|----------------|-----------------|-----------------|
D--4-4-4-4-4--6---|-7-7-7-7-7--9---|-6-6-6-6---------|-6-6-6-6---------|
A--4-4-4-4-4--6---|-7-7-7-7-7--9---|-4-4-4-4-7-7-7-7-|-4-4-4-4-7-7-7-7-|
e--2-2-2-2-2--4---|-5-5-5-5-5--7---|---------5-5-5-5-|---------5-5-5-5-|

E-----------------|----------------|--0-------|--(0)------|
B-----------------|----------------|--0-------|--(0)------|
G-----------------|----------------|--1-------|--(1)------|
D--4-4-4-4-4--6---|-7-7-7-7-7--9---|--2-------|--(2)------|
A--4-4-4-4-4--6---|-7-7-7-7-7--9---|--2-------|--(2)------|
e--2-2-2-2-2--4---|-5-5-5-5-5--7---|--0-------|--(0)------|


Verse 1

(full chords,one strum, use "crunch" pedal or "clean" with little bit distortion)

F#m              A
Hey you, are you feeling like me too?
E                B
I need to get an answer out of you, well

(The next part is the same chords, but use distortion and power chords)
MFZB!!!

Chorus:

(distortion, power chords and many angries neighbors)

E-----|-----|-----|-----|
B-----|-----|-----|-----|
G-----|-----|-----|-----|
D--4--|--4--|--7--|--2--|X4
A--4--|--4--|--7--|--2--|
e--2--|--2--|--5--|--0--|

That all the song, pretty boring but nice.
I'll be very happy if somebody would upload a lesson how to do the greg's technique that 
doing in the bridges and in another songs like "just the tip, politics and more"
if someone can teach me, so talk to me In the ICQ.
ĂŽnscrie-te la newsletter


Join the ranks ! LIKE us on Facebook