His World Tab - Zebrahead




Tabber: Sabri aka Mistle
Contact: sabri.hasankolli@gmail.com
Notes: To my knowledge this is the first His World guitar tab on the net. I know alot of 
who want to learn this song, but cannot find a tab. Well, thats why I decided to tab 
It's not very hard, just power chords.
If you want an audio sample of this song, I am going to upload a Youtube video of myself 
it.

Intro
e|-----------------------------------------------------------|
B|-----------------------------------------------------------|
G|--13--X--15--X--16--X--18--X--16--X--15--X--16--15--13--x--|   x6
D|-----------------------------------------------------------|
A|-----------------------------------------------------------|
E|-----------------------------------------------------------|

Verse Riff 1
e|----------------------------------------|
B|----------------------------------------|
G|----------------------------------------|   x2
D|--13-13---11-11---9-9---6-6--6--8-8--8--|
A|--13-13---11-11---9-9---6-6--6--8-8--8--|
E|--11-11---9--9----7-7---4-4--4--6-6--6--|

Verse Riff 2
e|-------------------------------------------------------------------|
B|-------------------------------------------------------------------|
G|-------------------------------------------------------------------|
D|--13-13-13-13-13-13-13-13-11-11-11-11-11-11-11-11-9-9-9-9-9-9-9-9--|
A|--13-13-13-13-13-13-13-13-11-11-11-11-11-11-11-11-9-9-9-9-9-9-9-9--|
E|--11-11-11-11-11-11-11-11-9--9--9--9--9--9--9--9--7-7-7-7-7-7-7-7--|

  ------------------|
  ------------------|
  ------------------|   x2
  --6-6-6-6-8-8-8-8-|
  --6-6-6-6-8-8-8-8-|
  --4-4-4-4-6-6-6-6-|

Bridge
e|------------------|
B|------------------|
G|------------------|
D|--6---8---9---11--|   x3
A|--6---8---9---11--|
E|--4---6---7---9---|

Chorus
e|-------------------------------------------------------------------|
B|-------------------------------------------------------------------|
G|--4-4-4-4-4-4-4-4-6-6-6-6-6-6-6-6-8-8-8-8-8-8-8-8-6-6-6-6-6-6-6-6--|
D|--4-4-4-4-4-4-4-4-6-6-6-6-6-6-6-6-8-8-8-8-8-8-8-8-6-6-6-6-6-6-6-6--|
A|--2-2-2-2-2-2-2-2-4-4-4-4-4-4-4-4-6-6-6-6-6-6-6-6-4-4-4-4-4-4-4-4--|
E|-------------------------------------------------------------------|

e|--------------------------------------------------------------------------|
B|--------------------------------------------------------------------------|
G|--4-4-4-4-4-4-4-4-6-6-6-6-6-6-6-6-8-8-8-8-8-8-8-8-11-11-11-11-11-11-11-11-|
D|--4-4-4-4-4-4-4-4-6-6-6-6-6-6-6-6-8-8-8-8-8-8-8-8-11-11-11-11-11-11-11-11-|
A|--2-2-2-2-2-2-2-2-4-4-4-4-4-4-4-4-6-6-6-6-6-6-6-6-9--9--9--9--9--9--9--9--|
E|--------------------------------------------------------------------------|

e|-------------------------------------------------------------------|
B|-------------------------------------------------------------------|
G|--4-4-4-4-4-4-4-4-6-6-6-6-6-6-6-6-8-8-8-8-8-8-8-8-6-6-6-6-6-6-6-6--|
D|--4-4-4-4-4-4-4-4-6-6-6-6-6-6-6-6-8-8-8-8-8-8-8-8-6-6-6-6-6-6-6-6--|
A|--2-2-2-2-2-2-2-2-4-4-4-4-4-4-4-4-6-6-6-6-6-6-6-6-4-4-4-4-4-4-4-4--|
E|-------------------------------------------------------------------|

e|-------------------------------------------------------------------|
B|-------------------------------------------------------------------|
G|--4-4-4-4-4-4-4-4-6-6-6-6-6-6-6-6-8-8---8-8---8-8---8-8------------|
D|--4-4-4-4-4-4-4-4-6-6-6-6-6-6-6-6-8-8---8-8---8-8---8-8------------|
A|--2-2-2-2-2-2-2-2-4-4-4-4-4-4-4-4-6-6---6-6---6-6---6-6------------|
E|-------------------------------------------------------------------|

Then from here go back to Verse Riff 1 and repeat. I haven't quite tabbed the solo 
yet, but be sure to keep checking back.

Solo (Work in progress)

Now, for the breakdown I put on my wah pedal and use harmonics wth the bridge chords. 
for the part right before the chorus kicks in just mute all strings and strum fast, whilst 
releasing the wah.

Last chorus (play the first 2 bars of the normal chorus, then this;
e|--------------------------------------------------------------------------|
B|--------------------------------------------------------------------------|
G|--------------------------------------------------------------------------|
D|--11-11-11-11-11-11-11-11-10-10-10-10-10-10-10-10-8-8-8-8-8-8-8-8-6-6-6-6-|
A|--x--x--x--x--x--x--x--x--x--x--x--x--x--x--x--x--x-x-x-x-x-x-x-x-x-x-x-x-|
E|--9--9--9--9--9--9--9--9--8--8--8--8--8--8--8--8--6-6-6-6-6-6-6-6-4-4-4-4-|

  -----------|
  -----------|
  -----------|
  --6-6-6-6--|
  --x-x-x-x--|
  --4-4-4-4--|

Now play the 4th bar of the normal chorus, do a pickslide, and repeat last chorus.

Ending:
e|------------------|
B|------------------|
G|------------------|
D|--6---8---9---11--|   x3
A|--6---8---9---11--|
E|--4---6---7---9---|

End on:
e|-----|
B|-----|
G|--8--|
D|--8--|
A|--6--|
E|-----|

Well, thats it. It's not very hard to play, but it's a lot of fun.
ĂŽnscrie-te la newsletter


Join the ranks ! LIKE us on Facebook