Lobotomy For Dumbies Intro Tab - Zebrahead




-------------------------------------------------------------------------------
           lobotomy for dumbies - zebrahead
-------------------------------------------------------------------------------
Tabbed by:michael langdon (aka jimpachi00)
Email:michaeltroy1982@hotmail.com

Tuning: standard


intro:
e|-----------------------------------|
B|-----------------------------------|
G|-7-7-xxxx----------7-7-xxxx--------|
D|-7-7-xxxx-7-7-xxxx-7-7-xxxx--7-5-4-|
A|-5-5-xxxx-7-7-xxxx-5-5-xxxx--7-5-4-|
E|----------5-5-xxxx-----------5-3-2-|   [play this X4]

i havnt yet worked out how to play the 2nd guitar part for the intro (even though it 
fairly simple)


verse:
e|-------------------------------------|
B|-------------------------------------|
G|-7-7------------7-7------------------|
D|-7-7-----5-5----7-7-----5-5----7-5-4-|
A|-5-5-----5-5----5-5-----5-5----7-5-4-|
E|---------3-3------------3-3----5-3-2-|

end of verse:
e|--------------|
B|--------------|
G|--------------|
D|-5-4-5-7-5-7--|
A|-5-4-5-7-5-7--|
E|-3-2-3-5-3-5--|

its more than the intro but it just gives ya more to work with i guess :D have fun u guys

and remember .............  ZEBRAHEAD F**KIN RULE!!!
ĂŽnscrie-te la newsletter


Join the ranks ! LIKE us on Facebook