Children Of The Grave (ver2) Tab - Black Sabbath






Children of the grave 
Black Sabbath
Standard Tuning
Tabbed by : Odie

This should be the closets to the actual thing. I didn't tab the solo because I
use the pentatonic scales to create my own. If you like this song check out the
version done by white zombie its pretty good. Listen to get the timing right.

Intro (I'm not sure how many times you repeat it)
e----------------------------------------------------------
b----------------------------------------------------------
g----------------------------------------------------------
d---11-11-11-11-11-11-11-11-11-11-11-----------------------
a---11-11-11-11-11-11-11-11-11-11-11-----------------------
E---9--9--9--9--9--9--9--9--9--9--9------------------------
P.M *  *  *  *  *  *  *  *  *  *  *

Riff A (just add in after the intro)
e----------------------------------------------------------
b----------------------------------------------------------
g----------------------------------------------------------
d---14--13-------------------------------------------------
a---12--11-------------------------------------------------
E----------------------------------------------------------

Riff B
e----------------------------------------------------------
b----------------------------------------------------------
g----------------------------------------------------------
d----------------------------------------------------------
a---9/11---14---7--7/9-9-----------------------------------
E---7/9----12---5--5/7-7-----------------------------------

Verse
e----------------------------------------------------------
b----------------------------------------------------------
g----------------------------------------------------------
d--11-11-11-11-11-11-11-11--14-----------------------------
a--11-11-11-11-11-11-11-11--14-----------------------------
E--9--9--9--9--9--9--9--9---12-----------------------------
P.M   *  *  *  *  *  *  *

Interlude
e-----------------------------------------------------------
b-----------------------------------------------------------
g-----------------------------------------------------------
d-----------------------2------------------------2----------
a--------0--2--0--1--2-----------------0--1--2------1--0----
E--0--3--------------------------0--3-----------------------

Riff 2
e----------------------------------------------------------
b----------------------------------------------------------
g----------------------------------------------------------
d----------------------------------------------------------
a--11--14--11--6--5--5--6--8--9--11--14--11--9--6--6--7----
E--9---12--9---4--3--3--4--6--7--9---12--9---7--8--8--9----

Progression
Intro
Riff A  2x
Riff B
Riff A  2x
Verse   7x
Riff B
Riff A  2x
Verse   7x
Interlude 4x
Riff 2 2x
Riff A  2x
Verse  7x
Riff B 
Solo






Like us on Facebook