Zero The Hero Bass Tab - Black Sabbath






Song: Zero the Hero
Band: Black Sabbath
Album: Born Again
Tabbed by: cianormo

When I first heard this song, Tonys mighty and terrifying guitar work scared me 
A brilliant riff and as usual, no bass tabs. I gave it a go. I didnt write out the song 
because a lot of the riffs are repeated over and over again

The Dark plays, then the main riff comes in around 00:33

Main Riff
Gb|------------------------------------------------|
Db|------------------------------------------------|
Ab|-----------------------------0------------------|
Eb|--2--2--0--1--2--2--0--1--2-----2--1--2--2--1--0|

Riff B
Gb|------------------------------------------------------------|
Db|-----4--------------4--------------4--------------4---------|
Ab|--------3--2--2--------3--2--2--------3--2--2--------3--2--2|
Eb|--2--------------2--------------2--------------2------------|

Riff C
Gb|------------------------------------------------------------------|
Db|-----6--------------6--------------6--------------6---------------|
Ab|--------5--4--4--------5--4--4--------5--4--4--------5--4--4------|
Eb|--4--------------4--------------4--------------4--------------1--0|

Chorus (What ya gonna be)
Gb|------------------------------------------------|
Db|------------------------------------------------|
Ab|-----------------------------2------------------|
Eb|--4--4--2--3--4--4--2--3--4-----4--3--4--4--2--3|

Gb|------------------------------------------------|
Db|------------------------------------------------|
Ab|----------4---------2---------------------------|
Eb|-----------------------------2----------4-------|

And that is it. I mightnt have tabbed the rhythm correctly but listen to the song and 
get it no problem.

Please Rate.

Enjoy!!!






Like us on Facebook