f**k Your Enemy Bass Tab - Superjoint Ritual




Band:Superjoint Ritual
Song:f**k Your Enemy
Album:Use Once And Destroy

Tuning: (D A D G)
Tabbed by: Dark Ruler (midian@ispsaver.com)

Intro
G -------------------------------|
D -------------------------------|
A -------------------------------|
D -0---0-0-00-0-000-0-00-0-0-000-|

x12
G ------------------------------|
D ------------------------------|
A ------------------------------|
D -02-02-02-02-02-02/5----------|

G ------------------------------|
D ------------------------------|
A ------------------------------|
D -3-3-3-3-3-3-3-3-3------------|

x2
G ------------------------------|
D ------------------------------|
A ------------------------------|
D -02-02-02-02-02-02/5----------|

G ------------------------------|
D ------------------------------|
A ------------------------------|
D -3-3-3-3-3-3-3-3-3------------|

x4
G ------------------------------|
D ------------------------------|
A ------------------------------|
D -02-02-02-02-02-02/5----------|

G ------------------------------|
D -543--------------------------|
A ----543-----------------------|
D -------765432-----------------|

x1
G ------------------------------|
D ------------------------------|
A ------------------------------|
D -02-02-02-02-02-02/5----------|

G ------------------------------|
D -543--------------------------|
A ----543-----------------------|
D -------765432-----------------|

x1
G ------------------------------|
D ------------------------------|
A ------------------------------|
D -02-02-02-02-02-02/5----------|

G ------------------------------|
D -543--------------------------|
A ----543-----------------------|
D -------765432-----------------|

x1
G ------------------------------|
D ------------------------------|
A ------------------------------|
D -02-02-02-02-02-02/5----------|

G ------------------------------|
D -543--------------------------|
A ----543-----------------------|
D -------765432-----------------|

x4 (Play 0 at end of song)
G ------------------------------|
D ------------------------------|
A ------------------------------|
D -02-02-02-02-02-02/5--0-------|

This is my first tab and I think it's near perfect if thers's any part that
is wrong or missing email me hope you enjoy it!

ĂŽnscrie-te la newsletter


Join the ranks ! LIKE us on Facebook