The Knife Rises Tab - Superjoint Ritual




The knife rises

Riff 1

|-------------------|
|-------------------|
|-------------------|
|-------------------|
|-------------------|
|-0-0-7-3---0--7-2--|

Riff 2a

|------------------------------------|
|------------------------------------|
|------------------------------------|
|-9-8----6-7----8-7------------------|
|-7-6----4-5----6-5----777888555444--|
|-------------------///555666333222--|

Riff 2b

|-------------------------------------------|
|-------------------------------------------|
|-------------------------------------------|
|-9-8xxxxxx6-7xxxxxx8-7xxxxxxx--------------|
|-7-6xxxxxx4-5xxxxxx6-5xxxxxxx-77-88-55-44--|
|------------------------------55-66-33-22--|

Riff 3a

|---------------|
|---------------|
|---------------|
|---------------|
|--77-88-55-44--|
|--55-66-33-22--|

Riff 3b

|---------------|
|---------------|
|---------------|
|---------------|
|---------------|
|--55-66-33-22--|

Riff 3c 

|---------------|
|---------------|
|---------------|
|---------------|
|--77-88-55-44--|   gradually speed up 
|--55-66-33-22--|
   .. .. .. ..   p.m.


Fill

|-----|
|-----|
|-----|
|-----|
|--2--|  

ĂŽnscrie-te la newsletter


Join the ranks ! LIKE us on Facebook